ISO-10303-21;
HEADER;
FILE_DESCRIPTION (( 'STEP AP203' ),
    '1' );
FILE_NAME ('QM-CAQWP-20-550-750-M.STEP',
    '2021-01-05T02:45:13',
    ( '' ),
    ( '' ),
    'SwSTEP 2.0',
    'SolidWorks 2020',
    '' );
FILE_SCHEMA (( 'CONFIG_CONTROL_DESIGN' ));
ENDSEC;

DATA;
#1 = LINE ( 'NONE', #83, #13 ) ;
#2 = DIRECTION ( 'NONE',  ( 1.000000000000000000, 0.000000000000000000, 0.000000000000000000 ) ) ;
#3 = LOCAL_TIME ( 10, 45, 13.00000000000000000, #11 ) ;
#4 = PERSON ( 'UNSPECIFIED', 'UNSPECIFIED', 'UNSPECIFIED', ('UNSPECIFIED'), ('UNSPECIFIED'), ('UNSPECIFIED') ) ;
#5 = APPROVAL_STATUS ( 'not_yet_approved' ) ;
#6 = UNCERTAINTY_MEASURE_WITH_UNIT (LENGTH_MEASURE( 1.000000000000000082E-05 ), #86, 'distance_accuracy_value', 'NONE');
#7 = CARTESIAN_POINT ( 'NONE',  ( 2.999999999999999112, 0.000000000000000000, 10.00000000000000000 ) ) ;
#8 = CC_DESIGN_SECURITY_CLASSIFICATION ( #178, ( #171 ) ) ;
#9 = LINE ( 'NONE', #85, #211 ) ;
#10 = DIRECTION ( 'NONE',  ( -1.000000000000000000, -0.000000000000000000, -0.000000000000000000 ) ) ;
#11 = COORDINATED_UNIVERSAL_TIME_OFFSET ( 8, 0, .AHEAD. ) ;
#12 = APPROVAL_DATE_TIME ( #244, #322 ) ;
#13 = VECTOR ( 'NONE', #51, 1000.000000000000000 ) ;
#14 = APPROVAL_STATUS ( 'not_yet_approved' ) ;
#15 = AXIS2_PLACEMENT_3D ( 'NONE', #118, #63, #296 ) ;
#16 = APPROVAL ( #5, 'UNSPECIFIED' ) ;
#17 = PLANE ( 'NONE',  #319 ) ;
#18 = ORIENTED_EDGE ( 'NONE', *, *, #208, .F. ) ;
#19 = DIRECTION ( 'NONE',  ( 0.000000000000000000, 0.000000000000000000, 1.000000000000000000 ) ) ;
#20 = DATE_AND_TIME ( #189, #159 ) ;
#21 = ORIENTED_EDGE ( 'NONE', *, *, #214, .F. ) ;
#22 = AXIS2_PLACEMENT_3D ( 'NONE', #274, #2, #133 ) ;
#23 = EDGE_CURVE ( 'NONE', #172, #173, #158, .T. ) ;
#24 = ORIENTED_EDGE ( 'NONE', *, *, #23, .F. ) ;
#25 = ADVANCED_FACE ( 'NONE', ( #50 ), #335, .F. ) ;
#26 = FACE_OUTER_BOUND ( 'NONE', #195, .T. ) ;
#27 = CIRCLE ( 'NONE', #119, 10.00000000000000000 ) ;
#28 = VERTEX_POINT ( 'NONE', #155 ) ;
#29 = ORIENTED_EDGE ( 'NONE', *, *, #300, .T. ) ;
#30 = DIRECTION ( 'NONE',  ( 1.000000000000000000, 0.000000000000000000, 0.000000000000000000 ) ) ;
#31 = CC_DESIGN_DATE_AND_TIME_ASSIGNMENT ( #41, #277, ( #91 ) ) ;
#32 = ORIENTED_EDGE ( 'NONE', *, *, #67, .F. ) ;
#33 = CARTESIAN_POINT ( 'NONE',  ( -3.000000000000000000, 1.555301434917138433E-15, -12.69999999999999929 ) ) ;
#34 = DIRECTION ( 'NONE',  ( -1.000000000000000000, -0.000000000000000000, -0.000000000000000000 ) ) ;
#35 = ORIENTED_EDGE ( 'NONE', *, *, #52, .T. ) ;
#36 = CC_DESIGN_PERSON_AND_ORGANIZATION_ASSIGNMENT ( #112, #217, ( #171 ) ) ;
#37 = APPROVAL_PERSON_ORGANIZATION ( #238, #16, #39 ) ;
#38 = FACE_BOUND ( 'NONE', #153, .T. ) ;
#39 = APPROVAL_ROLE ( '' ) ;
#40 = COORDINATED_UNIVERSAL_TIME_OFFSET ( 8, 0, .AHEAD. ) ;
#41 = DATE_AND_TIME ( #280, #186 ) ;
#42 = DATE_TIME_ROLE ( 'classification_date' ) ;
#43 = CARTESIAN_POINT ( 'NONE',  ( 2.999999999999999112, 1.224646799147353256E-15, -10.00000000000000000 ) ) ;
#44 = AXIS2_PLACEMENT_3D ( 'NONE', #46, #103, #151 ) ;
#45 = ORIENTED_EDGE ( 'NONE', *, *, #243, .T. ) ;
#46 = CARTESIAN_POINT ( 'NONE',  ( -0.5000000000000006661, 0.000000000000000000, 0.000000000000000000 ) ) ;
#47 = VERTEX_POINT ( 'NONE', #7 ) ;
#48 = DIRECTION ( 'NONE',  ( -1.000000000000000000, -0.000000000000000000, -0.000000000000000000 ) ) ;
#49 = EDGE_CURVE ( 'NONE', #47, #198, #27, .T. ) ;
#50 = FACE_OUTER_BOUND ( 'NONE', #245, .T. ) ;
#51 = DIRECTION ( 'NONE',  ( -1.000000000000000000, -0.000000000000000000, -0.000000000000000000 ) ) ;
#52 = EDGE_CURVE ( 'NONE', #47, #172, #1, .T. ) ;
#53 = DIRECTION ( 'NONE',  ( -1.000000000000000000, 0.000000000000000000, -0.000000000000000000 ) ) ;
#54 =( NAMED_UNIT ( * ) SI_UNIT ( $, .STERADIAN. ) SOLID_ANGLE_UNIT ( ) );
#55 = FACE_BOUND ( 'NONE', #180, .T. ) ;
#57 = LINE ( 'NONE', #97, #165 ) ;
#56 = APPROVAL_DATE_TIME ( #216, #16 ) ;
#58 = DESIGN_CONTEXT ( 'detailed design', #147, 'design' ) ;
#59 = APPROVAL_DATE_TIME ( #20, #145 ) ;
#60 = VERTEX_POINT ( 'NONE', #102 ) ;
#61 = AXIS2_PLACEMENT_3D ( 'NONE', #161, #34, #19 ) ;
#62 = VERTEX_POINT ( 'NONE', #104 ) ;
#63 = DIRECTION ( 'NONE',  ( -1.000000000000000000, -0.000000000000000000, -0.000000000000000000 ) ) ;
#64 = CC_DESIGN_PERSON_AND_ORGANIZATION_ASSIGNMENT ( #321, #88, ( #91 ) ) ;
#65 = LINE ( 'NONE', #206, #149 ) ;
#66 = EDGE_LOOP ( 'NONE', ( #45, #327, #331, #96 ) ) ;
#67 = EDGE_CURVE ( 'NONE', #263, #28, #236, .T. ) ;
#68 = DIRECTION ( 'NONE',  ( -1.000000000000000000, -0.000000000000000000, -0.000000000000000000 ) ) ;
#69 = ORIENTED_EDGE ( 'NONE', *, *, #52, .F. ) ;
#70 = EDGE_CURVE ( 'NONE', #60, #283, #201, .T. ) ;
#71 = CARTESIAN_POINT ( 'NONE',  ( -0.5000000000000006661, 1.224646799147353256E-15, -10.00000000000000000 ) ) ;
#72 = DIRECTION ( 'NONE',  ( -1.000000000000000000, -0.000000000000000000, -0.000000000000000000 ) ) ;
#73 = CARTESIAN_POINT ( 'NONE',  ( -1.614212418857619014, 0.000000000000000000, 0.000000000000000000 ) ) ;
#74 = MANIFOLD_SOLID_BREP ( 'Ðý×', #266 ) ;
#75 = CIRCLE ( 'NONE', #15, 12.69999999999999929 ) ;
#76 = FACE_OUTER_BOUND ( 'NONE', #309, .T. ) ;
#77 = DIRECTION ( 'NONE',  ( -1.000000000000000000, -0.000000000000000000, -0.000000000000000000 ) ) ;
#78 = ADVANCED_BREP_SHAPE_REPRESENTATION ( 'QM-CAQWP-20-550-750-M', ( #74, #302 ), #205 ) ;
#79 = APPLICATION_PROTOCOL_DEFINITION ( 'international standard', 'config_control_design', 1994, #215 ) ;
#80 = DIRECTION ( 'NONE',  ( 0.000000000000000000, 0.000000000000000000, 1.000000000000000000 ) ) ;
#81 = CYLINDRICAL_SURFACE ( 'NONE', #270, 12.69999999999999929 ) ;
#82 = AXIS2_PLACEMENT_3D ( 'NONE', #294, #316, #80 ) ;
#83 = CARTESIAN_POINT ( 'NONE',  ( -1.614212418857619014, 0.000000000000000000, 10.00000000000000000 ) ) ;
#84 = AXIS2_PLACEMENT_3D ( 'NONE', #92, #253, #299 ) ;
#85 = CARTESIAN_POINT ( 'NONE',  ( -1.614212418857619014, 0.000000000000000000, 10.00000000000000000 ) ) ;
#86 =( LENGTH_UNIT ( ) NAMED_UNIT ( * ) SI_UNIT ( .MILLI., .METRE. ) );
#87 = FACE_OUTER_BOUND ( 'NONE', #177, .T. ) ;
#88 = PERSON_AND_ORGANIZATION_ROLE ( 'creator' ) ;
#89 = PERSON_AND_ORGANIZATION_ROLE ( 'design_supplier' ) ;
#90 = ORIENTED_EDGE ( 'NONE', *, *, #164, .F. ) ;
#91 = PRODUCT_DEFINITION ( 'UNKNOWN', '', #171, #58 ) ;
#92 = CARTESIAN_POINT ( 'NONE',  ( -3.000000000000000000, 0.000000000000000000, 0.000000000000000000 ) ) ;
#93 = COORDINATED_UNIVERSAL_TIME_OFFSET ( 8, 0, .AHEAD. ) ;
#94 = ORIENTED_EDGE ( 'NONE', *, *, #141, .F. ) ;
#95 = CC_DESIGN_PERSON_AND_ORGANIZATION_ASSIGNMENT ( #291, #157, ( #235 ) ) ;
#96 = ORIENTED_EDGE ( 'NONE', *, *, #70, .F. ) ;
#97 = CARTESIAN_POINT ( 'NONE',  ( -1.614212418857619014, 1.555301434917138433E-15, -12.69999999999999929 ) ) ;
#98 = FACE_OUTER_BOUND ( 'NONE', #66, .T. ) ;
#99 = ORIENTED_EDGE ( 'NONE', *, *, #141, .T. ) ;
#100 = CIRCLE ( 'NONE', #111, 10.00000000000000000 ) ;
#101 = ADVANCED_FACE ( 'NONE', ( #269 ), #207, .F. ) ;
#102 = CARTESIAN_POINT ( 'NONE',  ( 3.000000000000000000, 0.000000000000000000, 12.69999999999999929 ) ) ;
#103 = DIRECTION ( 'NONE',  ( 1.000000000000000000, 0.000000000000000000, 0.000000000000000000 ) ) ;
#104 = CARTESIAN_POINT ( 'NONE',  ( -3.000000000000000000, 0.000000000000000000, 10.00000000000000000 ) ) ;
#105 = AXIS2_PLACEMENT_3D ( 'NONE', #202, #68, #258 ) ;
#106 = DIRECTION ( 'NONE',  ( 0.000000000000000000, 0.000000000000000000, 1.000000000000000000 ) ) ;
#107 = CARTESIAN_POINT ( 'NONE',  ( -1.614212418857619014, 1.224646799147353256E-15, -10.00000000000000000 ) ) ;
#108 = EDGE_CURVE ( 'NONE', #283, #156, #246, .T. ) ;
#109 = CIRCLE ( 'NONE', #242, 12.69999999999999929 ) ;
#110 = ORIENTED_EDGE ( 'NONE', *, *, #70, .T. ) ;
#111 = AXIS2_PLACEMENT_3D ( 'NONE', #213, #136, #209 ) ;
#112 = PERSON_AND_ORGANIZATION ( #4, #288 ) ;
#113 = ORIENTED_EDGE ( 'NONE', *, *, #67, .T. ) ;
#114 = AXIS2_PLACEMENT_3D ( 'NONE', #282, #138, #162 ) ;
#115 = APPROVAL_ROLE ( '' ) ;
#116 = PERSON_AND_ORGANIZATION ( #4, #288 ) ;
#117 = ADVANCED_FACE ( 'NONE', ( #183 ), #152, .F. ) ;
#118 = CARTESIAN_POINT ( 'NONE',  ( -3.000000000000000000, 0.000000000000000000, 0.000000000000000000 ) ) ;
#119 = AXIS2_PLACEMENT_3D ( 'NONE', #234, #131, #231 ) ;
#120 = CARTESIAN_POINT ( 'NONE',  ( 0.5000000000000013323, 0.000000000000000000, 0.000000000000000000 ) ) ;
#121 = ADVANCED_FACE ( 'NONE', ( #320 ), #318, .F. ) ;
#122 = CIRCLE ( 'NONE', #22, 10.00000000000000000 ) ;
#123 = EDGE_LOOP ( 'NONE', ( #289, #150, #35, #125 ) ) ;
#124 = CYLINDRICAL_SURFACE ( 'NONE', #220, 12.69999999999999929 ) ;
#125 = ORIENTED_EDGE ( 'NONE', *, *, #23, .T. ) ;
#126 = ORIENTED_EDGE ( 'NONE', *, *, #325, .T. ) ;
#127 = CIRCLE ( 'NONE', #44, 10.00000000000000000 ) ;
#128 = ORIENTED_EDGE ( 'NONE', *, *, #243, .F. ) ;
#129 = DIRECTION ( 'NONE',  ( 0.000000000000000000, 0.000000000000000000, 1.000000000000000000 ) ) ;
#130 = MECHANICAL_CONTEXT ( 'NONE', #215, 'mechanical' ) ;
#131 = DIRECTION ( 'NONE',  ( -1.000000000000000000, -0.000000000000000000, -0.000000000000000000 ) ) ;
#132 = DIRECTION ( 'NONE',  ( -1.000000000000000000, -0.000000000000000000, -0.000000000000000000 ) ) ;
#133 = DIRECTION ( 'NONE',  ( 0.000000000000000000, 0.000000000000000000, -1.000000000000000000 ) ) ;
#134 =( NAMED_UNIT ( * ) PLANE_ANGLE_UNIT ( ) SI_UNIT ( $, .RADIAN. ) );
#135 = ORIENTED_EDGE ( 'NONE', *, *, #108, .T. ) ;
#136 = DIRECTION ( 'NONE',  ( -1.000000000000000000, -0.000000000000000000, -0.000000000000000000 ) ) ;
#137 = CC_DESIGN_APPROVAL ( #16, ( #91 ) ) ;
#138 = DIRECTION ( 'NONE',  ( -1.000000000000000000, 0.000000000000000000, -0.000000000000000000 ) ) ;
#139 = CALENDAR_DATE ( 2021, 5, 1 ) ;
#140 = ORIENTED_EDGE ( 'NONE', *, *, #223, .T. ) ;
#141 = EDGE_CURVE ( 'NONE', #292, #62, #9, .T. ) ;
#142 = PERSON_AND_ORGANIZATION_ROLE ( 'classification_officer' ) ;
#143 = CC_DESIGN_APPROVAL ( #322, ( #171 ) ) ;
#144 = DATE_AND_TIME ( #247, #256 ) ;
#145 = APPROVAL ( #14, 'UNSPECIFIED' ) ;
#146 = CARTESIAN_POINT ( 'NONE',  ( 0.5000000000000013323, 0.000000000000000000, 10.00000000000000000 ) ) ;
#147 = APPLICATION_CONTEXT ( 'configuration controlled 3d designs of mechanical parts and assemblies' ) ;
#148 = CARTESIAN_POINT ( 'NONE',  ( -0.5000000000000006661, 10.00000000000000000, 0.000000000000000000 ) ) ;
#149 = VECTOR ( 'NONE', #10, 1000.000000000000000 ) ;
#150 = ORIENTED_EDGE ( 'NONE', *, *, #49, .F. ) ;
#151 = DIRECTION ( 'NONE',  ( 0.000000000000000000, 0.000000000000000000, -1.000000000000000000 ) ) ;
#152 = PLANE ( 'NONE',  #167 ) ;
#153 = EDGE_LOOP ( 'NONE', ( #175, #140 ) ) ;
#154 = APPROVAL_PERSON_ORGANIZATION ( #326, #322, #115 ) ;
#155 = CARTESIAN_POINT ( 'NONE',  ( -3.000000000000000000, 1.224646799147353256E-15, -10.00000000000000000 ) ) ;
#156 = VERTEX_POINT ( 'NONE', #33 ) ;
#157 = PERSON_AND_ORGANIZATION_ROLE ( 'design_owner' ) ;
#158 = CIRCLE ( 'NONE', #273, 10.00000000000000000 ) ;
#159 = LOCAL_TIME ( 10, 45, 13.00000000000000000, #251 ) ;
#160 = EDGE_CURVE ( 'NONE', #226, #60, #109, .T. ) ;
#161 = CARTESIAN_POINT ( 'NONE',  ( -1.614212418857619014, 0.000000000000000000, 0.000000000000000000 ) ) ;
#162 = DIRECTION ( 'NONE',  ( -0.000000000000000000, 0.000000000000000000, 1.000000000000000000 ) ) ;
#163 = DIRECTION ( 'NONE',  ( -0.000000000000000000, 0.000000000000000000, 1.000000000000000000 ) ) ;
#164 = EDGE_CURVE ( 'NONE', #156, #283, #75, .T. ) ;
#165 = VECTOR ( 'NONE', #185, 1000.000000000000000 ) ;
#166 = COORDINATED_UNIVERSAL_TIME_OFFSET ( 8, 0, .AHEAD. ) ;
#167 = AXIS2_PLACEMENT_3D ( 'NONE', #227, #53, #163 ) ;
#168 = EDGE_CURVE ( 'NONE', #226, #156, #57, .T. ) ;
#169 = SHAPE_DEFINITION_REPRESENTATION ( #254, #78 ) ;
#170 = DIRECTION ( 'NONE',  ( -1.000000000000000000, -0.000000000000000000, -0.000000000000000000 ) ) ;
#171 = PRODUCT_DEFINITION_FORMATION_WITH_SPECIFIED_SOURCE ( 'ANY', '', #235, .NOT_KNOWN. ) ;
#172 = VERTEX_POINT ( 'NONE', #146 ) ;
#173 = VERTEX_POINT ( 'NONE', #272 ) ;
#174 = ADVANCED_FACE ( 'NONE', ( #55, #87 ), #279, .F. ) ;
#175 = ORIENTED_EDGE ( 'NONE', *, *, #49, .T. ) ;
#176 = DIRECTION ( 'NONE',  ( -1.000000000000000000, -0.000000000000000000, -0.000000000000000000 ) ) ;
#177 = EDGE_LOOP ( 'NONE', ( #135, #218 ) ) ;
#178 = SECURITY_CLASSIFICATION ( '', '', #187 ) ;
#179 = CARTESIAN_POINT ( 'NONE',  ( -1.614212418857619014, 0.000000000000000000, 0.000000000000000000 ) ) ;
#180 = EDGE_LOOP ( 'NONE', ( #18, #311 ) ) ;
#181 = CARTESIAN_POINT ( 'NONE',  ( -3.000000000000000000, 0.000000000000000000, 0.000000000000000000 ) ) ;
#182 = ADVANCED_FACE ( 'NONE', ( #241, #38 ), #224, .F. ) ;
#183 = FACE_OUTER_BOUND ( 'NONE', #262, .T. ) ;
#184 = CC_DESIGN_APPROVAL ( #145, ( #178 ) ) ;
#185 = DIRECTION ( 'NONE',  ( -1.000000000000000000, -0.000000000000000000, -0.000000000000000000 ) ) ;
#186 = LOCAL_TIME ( 10, 45, 13.00000000000000000, #166 ) ;
#187 = SECURITY_CLASSIFICATION_LEVEL ( 'unclassified' ) ;
#188 = EDGE_LOOP ( 'NONE', ( #128, #290 ) ) ;
#189 = CALENDAR_DATE ( 2021, 5, 1 ) ;
#190 = DIRECTION ( 'NONE',  ( 0.000000000000000000, 0.000000000000000000, 1.000000000000000000 ) ) ;
#191 = ADVANCED_FACE ( 'NONE', ( #249 ), #17, .F. ) ;
#192 = CARTESIAN_POINT ( 'NONE',  ( -3.000000000000000000, 10.00000000000000000, 0.000000000000000000 ) ) ;
#193 = AXIS2_PLACEMENT_3D ( 'NONE', #120, #170, #196 ) ;
#194 = CALENDAR_DATE ( 2021, 5, 1 ) ;
#195 = EDGE_LOOP ( 'NONE', ( #333, #29, #281, #69 ) ) ;
#196 = DIRECTION ( 'NONE',  ( 0.000000000000000000, 0.000000000000000000, 1.000000000000000000 ) ) ;
#197 = CARTESIAN_POINT ( 'NONE',  ( 3.000000000000000000, 1.555301434917138433E-15, -12.69999999999999929 ) ) ;
#198 = VERTEX_POINT ( 'NONE', #43 ) ;
#199 = VECTOR ( 'NONE', #204, 1000.000000000000000 ) ;
#200 = CIRCLE ( 'NONE', #193, 10.00000000000000000 ) ;
#201 = LINE ( 'NONE', #315, #293 ) ;
#202 = CARTESIAN_POINT ( 'NONE',  ( 3.000000000000000000, 0.000000000000000000, 0.000000000000000000 ) ) ;
#203 = ORIENTED_EDGE ( 'NONE', *, *, #208, .T. ) ;
#204 = DIRECTION ( 'NONE',  ( -1.000000000000000000, -0.000000000000000000, -0.000000000000000000 ) ) ;
#205 =( GEOMETRIC_REPRESENTATION_CONTEXT ( 3 ) GLOBAL_UNCERTAINTY_ASSIGNED_CONTEXT ( ( #6 ) ) GLOBAL_UNIT_ASSIGNED_CONTEXT ( ( #86, #134, #54 ) ) REPRESENTATION_CONTEXT ( 'NONE', 'WORKASPACE' ) );
#206 = CARTESIAN_POINT ( 'NONE',  ( -1.614212418857619014, 1.224646799147353256E-15, -10.00000000000000000 ) ) ;
#207 = CYLINDRICAL_SURFACE ( 'NONE', #82, 10.00000000000000000 ) ;
#208 = EDGE_CURVE ( 'NONE', #62, #28, #295, .T. ) ;
#209 = DIRECTION ( 'NONE',  ( 0.000000000000000000, 0.000000000000000000, 1.000000000000000000 ) ) ;
#210 = DIRECTION ( 'NONE',  ( 0.000000000000000000, 0.000000000000000000, 1.000000000000000000 ) ) ;
#211 = VECTOR ( 'NONE', #275, 1000.000000000000000 ) ;
#212 = DIRECTION ( 'NONE',  ( 1.000000000000000000, 0.000000000000000000, 0.000000000000000000 ) ) ;
#213 = CARTESIAN_POINT ( 'NONE',  ( -3.000000000000000000, 0.000000000000000000, 0.000000000000000000 ) ) ;
#214 = EDGE_CURVE ( 'NONE', #173, #172, #200, .T. ) ;
#215 = APPLICATION_CONTEXT ( 'configuration controlled 3d designs of mechanical parts and assemblies' ) ;
#216 = DATE_AND_TIME ( #194, #3 ) ;
#217 = PERSON_AND_ORGANIZATION_ROLE ( 'creator' ) ;
#218 = ORIENTED_EDGE ( 'NONE', *, *, #164, .T. ) ;
#219 = CC_DESIGN_DATE_AND_TIME_ASSIGNMENT ( #144, #42, ( #178 ) ) ;
#220 = AXIS2_PLACEMENT_3D ( 'NONE', #260, #313, #129 ) ;
#221 = APPROVAL_ROLE ( '' ) ;
#222 = DIRECTION ( 'NONE',  ( 1.000000000000000000, 0.000000000000000000, 0.000000000000000000 ) ) ;
#223 = EDGE_CURVE ( 'NONE', #198, #47, #334, .T. ) ;
#224 = PLANE ( 'NONE',  #114 ) ;
#225 = PERSON_AND_ORGANIZATION ( #4, #288 ) ;
#226 = VERTEX_POINT ( 'NONE', #197 ) ;
#227 = CARTESIAN_POINT ( 'NONE',  ( 0.5000000000000006661, 10.00000000000000000, 0.000000000000000000 ) ) ;
#228 = CARTESIAN_POINT ( 'NONE',  ( -0.5000000000000006661, 0.000000000000000000, 10.00000000000000000 ) ) ;
#229 = ORIENTED_EDGE ( 'NONE', *, *, #307, .T. ) ;
#230 = EDGE_CURVE ( 'NONE', #292, #263, #127, .T. ) ;
#231 = DIRECTION ( 'NONE',  ( 0.000000000000000000, 0.000000000000000000, 1.000000000000000000 ) ) ;
#232 = CARTESIAN_POINT ( 'NONE',  ( 0.5000000000000013323, 0.000000000000000000, 0.000000000000000000 ) ) ;
#233 = CARTESIAN_POINT ( 'NONE',  ( 2.999999999999999112, 0.000000000000000000, 0.000000000000000000 ) ) ;
#234 = CARTESIAN_POINT ( 'NONE',  ( 2.999999999999999112, 0.000000000000000000, 0.000000000000000000 ) ) ;
#235 = PRODUCT ( 'QM-CAQWP-20-550-750-M', 'QM-CAQWP-20-550-750-M', '', ( #130 ) ) ;
#236 = LINE ( 'NONE', #107, #199 ) ;
#237 = APPROVAL_PERSON_ORGANIZATION ( #225, #145, #221 ) ;
#238 = PERSON_AND_ORGANIZATION ( #4, #288 ) ;
#239 = ORIENTED_EDGE ( 'NONE', *, *, #160, .T. ) ;
#240 = DIRECTION ( 'NONE',  ( 0.000000000000000000, 0.000000000000000000, 1.000000000000000000 ) ) ;
#241 = FACE_OUTER_BOUND ( 'NONE', #188, .T. ) ;
#242 = AXIS2_PLACEMENT_3D ( 'NONE', #330, #328, #190 ) ;
#243 = EDGE_CURVE ( 'NONE', #60, #226, #261, .T. ) ;
#244 = DATE_AND_TIME ( #139, #248 ) ;
#245 = EDGE_LOOP ( 'NONE', ( #306, #113, #229, #94 ) ) ;
#246 = CIRCLE ( 'NONE', #317, 12.69999999999999929 ) ;
#247 = CALENDAR_DATE ( 2021, 5, 1 ) ;
#248 = LOCAL_TIME ( 10, 45, 13.00000000000000000, #40 ) ;
#249 = FACE_OUTER_BOUND ( 'NONE', #257, .T. ) ;
#250 = DIRECTION ( 'NONE',  ( 0.000000000000000000, 0.000000000000000000, -1.000000000000000000 ) ) ;
#251 = COORDINATED_UNIVERSAL_TIME_OFFSET ( 8, 0, .AHEAD. ) ;
#252 = PRODUCT_RELATED_PRODUCT_CATEGORY ( 'detail', '', ( #235 ) ) ;
#253 = DIRECTION ( 'NONE',  ( -1.000000000000000000, -0.000000000000000000, -0.000000000000000000 ) ) ;
#254 = PRODUCT_DEFINITION_SHAPE ( 'NONE', 'NONE',  #91 ) ;
#255 = ORIENTED_EDGE ( 'NONE', *, *, #168, .F. ) ;
#256 = LOCAL_TIME ( 10, 45, 13.00000000000000000, #93 ) ;
#257 = EDGE_LOOP ( 'NONE', ( #304, #298 ) ) ;
#258 = DIRECTION ( 'NONE',  ( 0.000000000000000000, 0.000000000000000000, 1.000000000000000000 ) ) ;
#259 = DIRECTION ( 'NONE',  ( 0.000000000000000000, 0.000000000000000000, 1.000000000000000000 ) ) ;
#260 = CARTESIAN_POINT ( 'NONE',  ( -1.614212418857619014, 0.000000000000000000, 0.000000000000000000 ) ) ;
#261 = CIRCLE ( 'NONE', #105, 12.69999999999999929 ) ;
#262 = EDGE_LOOP ( 'NONE', ( #24, #21 ) ) ;
#263 = VERTEX_POINT ( 'NONE', #71 ) ;
#264 = CARTESIAN_POINT ( 'NONE',  ( 0.000000000000000000, 0.000000000000000000, 0.000000000000000000 ) ) ;
#265 = DIRECTION ( 'NONE',  ( 0.000000000000000000, 0.000000000000000000, 1.000000000000000000 ) ) ;
#266 = CLOSED_SHELL ( 'NONE', ( #268, #25, #278, #117, #101, #121, #174, #332, #182, #191 ) ) ;
#267 = APPLICATION_PROTOCOL_DEFINITION ( 'international standard', 'config_control_design', 1994, #147 ) ;
#268 = ADVANCED_FACE ( 'NONE', ( #98 ), #124, .T. ) ;
#269 = FACE_OUTER_BOUND ( 'NONE', #123, .T. ) ;
#270 = AXIS2_PLACEMENT_3D ( 'NONE', #179, #271, #106 ) ;
#271 = DIRECTION ( 'NONE',  ( -1.000000000000000000, -0.000000000000000000, -0.000000000000000000 ) ) ;
#272 = CARTESIAN_POINT ( 'NONE',  ( 0.5000000000000013323, 1.224646799147353256E-15, -10.00000000000000000 ) ) ;
#273 = AXIS2_PLACEMENT_3D ( 'NONE', #232, #72, #265 ) ;
#274 = CARTESIAN_POINT ( 'NONE',  ( -0.5000000000000006661, 0.000000000000000000, 0.000000000000000000 ) ) ;
#275 = DIRECTION ( 'NONE',  ( -1.000000000000000000, -0.000000000000000000, -0.000000000000000000 ) ) ;
#276 = AXIS2_PLACEMENT_3D ( 'NONE', #73, #176, #305 ) ;
#277 = DATE_TIME_ROLE ( 'creation_date' ) ;
#278 = ADVANCED_FACE ( 'NONE', ( #26 ), #285, .F. ) ;
#279 = PLANE ( 'NONE',  #297 ) ;
#280 = CALENDAR_DATE ( 2021, 5, 1 ) ;
#281 = ORIENTED_EDGE ( 'NONE', *, *, #214, .T. ) ;
#282 = CARTESIAN_POINT ( 'NONE',  ( 2.999999999999999556, 12.69999999999999929, 0.000000000000000000 ) ) ;
#283 = VERTEX_POINT ( 'NONE', #287 ) ;
#284 = DIRECTION ( 'NONE',  ( -1.000000000000000000, -0.000000000000000000, -0.000000000000000000 ) ) ;
#285 = CYLINDRICAL_SURFACE ( 'NONE', #276, 10.00000000000000000 ) ;
#286 = CARTESIAN_POINT ( 'NONE',  ( -1.614212418857619014, 0.000000000000000000, 0.000000000000000000 ) ) ;
#287 = CARTESIAN_POINT ( 'NONE',  ( -3.000000000000000000, 0.000000000000000000, 12.69999999999999929 ) ) ;
#288 = ORGANIZATION ( 'UNSPECIFIED', 'UNSPECIFIED', '' ) ;
#289 = ORIENTED_EDGE ( 'NONE', *, *, #300, .F. ) ;
#290 = ORIENTED_EDGE ( 'NONE', *, *, #160, .F. ) ;
#291 = PERSON_AND_ORGANIZATION ( #4, #288 ) ;
#292 = VERTEX_POINT ( 'NONE', #228 ) ;
#293 = VECTOR ( 'NONE', #77, 1000.000000000000000 ) ;
#294 = CARTESIAN_POINT ( 'NONE',  ( -1.614212418857619014, 0.000000000000000000, 0.000000000000000000 ) ) ;
#295 = CIRCLE ( 'NONE', #84, 10.00000000000000000 ) ;
#296 = DIRECTION ( 'NONE',  ( 0.000000000000000000, 0.000000000000000000, 1.000000000000000000 ) ) ;
#297 = AXIS2_PLACEMENT_3D ( 'NONE', #192, #212, #250 ) ;
#298 = ORIENTED_EDGE ( 'NONE', *, *, #325, .F. ) ;
#299 = DIRECTION ( 'NONE',  ( 0.000000000000000000, 0.000000000000000000, 1.000000000000000000 ) ) ;
#300 = EDGE_CURVE ( 'NONE', #198, #173, #65, .T. ) ;
#301 = APPROVAL_STATUS ( 'not_yet_approved' ) ;
#302 = AXIS2_PLACEMENT_3D ( 'NONE', #264, #240, #30 ) ;
#303 = DIRECTION ( 'NONE',  ( 0.000000000000000000, 0.000000000000000000, -1.000000000000000000 ) ) ;
#304 = ORIENTED_EDGE ( 'NONE', *, *, #230, .F. ) ;
#305 = DIRECTION ( 'NONE',  ( 0.000000000000000000, 0.000000000000000000, 1.000000000000000000 ) ) ;
#306 = ORIENTED_EDGE ( 'NONE', *, *, #230, .T. ) ;
#307 = EDGE_CURVE ( 'NONE', #28, #62, #100, .T. ) ;
#308 = AXIS2_PLACEMENT_3D ( 'NONE', #286, #48, #259 ) ;
#309 = EDGE_LOOP ( 'NONE', ( #255, #239, #110, #90 ) ) ;
#310 = CC_DESIGN_PERSON_AND_ORGANIZATION_ASSIGNMENT ( #324, #89, ( #171 ) ) ;
#311 = ORIENTED_EDGE ( 'NONE', *, *, #307, .F. ) ;
#312 = DIRECTION ( 'NONE',  ( 0.000000000000000000, 0.000000000000000000, 1.000000000000000000 ) ) ;
#313 = DIRECTION ( 'NONE',  ( -1.000000000000000000, -0.000000000000000000, -0.000000000000000000 ) ) ;
#314 = CC_DESIGN_PERSON_AND_ORGANIZATION_ASSIGNMENT ( #116, #142, ( #178 ) ) ;
#315 = CARTESIAN_POINT ( 'NONE',  ( -1.614212418857619014, 0.000000000000000000, 12.69999999999999929 ) ) ;
#316 = DIRECTION ( 'NONE',  ( -1.000000000000000000, -0.000000000000000000, -0.000000000000000000 ) ) ;
#317 = AXIS2_PLACEMENT_3D ( 'NONE', #181, #132, #210 ) ;
#318 = CYLINDRICAL_SURFACE ( 'NONE', #61, 10.00000000000000000 ) ;
#319 = AXIS2_PLACEMENT_3D ( 'NONE', #148, #222, #303 ) ;
#320 = FACE_OUTER_BOUND ( 'NONE', #323, .T. ) ;
#321 = PERSON_AND_ORGANIZATION ( #4, #288 ) ;
#322 = APPROVAL ( #301, 'UNSPECIFIED' ) ;
#323 = EDGE_LOOP ( 'NONE', ( #32, #126, #99, #203 ) ) ;
#324 = PERSON_AND_ORGANIZATION ( #4, #288 ) ;
#325 = EDGE_CURVE ( 'NONE', #263, #292, #122, .T. ) ;
#326 = PERSON_AND_ORGANIZATION ( #4, #288 ) ;
#327 = ORIENTED_EDGE ( 'NONE', *, *, #168, .T. ) ;
#328 = DIRECTION ( 'NONE',  ( -1.000000000000000000, -0.000000000000000000, -0.000000000000000000 ) ) ;
#329 = AXIS2_PLACEMENT_3D ( 'NONE', #233, #284, #312 ) ;
#330 = CARTESIAN_POINT ( 'NONE',  ( 3.000000000000000000, 0.000000000000000000, 0.000000000000000000 ) ) ;
#331 = ORIENTED_EDGE ( 'NONE', *, *, #108, .F. ) ;
#332 = ADVANCED_FACE ( 'NONE', ( #76 ), #81, .T. ) ;
#333 = ORIENTED_EDGE ( 'NONE', *, *, #223, .F. ) ;
#334 = CIRCLE ( 'NONE', #329, 10.00000000000000000 ) ;
#335 = CYLINDRICAL_SURFACE ( 'NONE', #308, 10.00000000000000000 ) ;
ENDSEC;
END-ISO-10303-21;
